Steptoe And Son

C       G       C       G       C       G      C        /
3---7-------5---3---7-------5---3---7-------5-------3-3-3-------
0-------3-------0-------3-------0-------3---------------0-------
0-------2-------0-------2-------0-------2-------0-------0-------
0-------0-------0-------0-------0-------0-------0-------0-------

 

C       G       C       G       C       /       /       G
3---3---2-3-2---0---0-----0-----0-------------------------------
0-------3-------0-------3---3---0---0---0-----------0---3-------
0-------2-------0-------2-------0-------0-------0-2-----2-------
0-------0-------0-------0-------0-------0-------0-------0-------

 

C       G       C       G       C       /       /       G
3---3---2-3-2---0---0-----0-----0-------------------------------
0-------3-------0-------3---3---0---0---0-----------0---3-------
0-------2-------0-------2-------0-------0-------0-2-----2-------
0-------0-------0-------0-------0-------0-------0-------0-------

 

F       G       F       G       F        G      C       /
----------------------------------------------------------------
----------0---------------0---------------0-----0---3---3-------
0---0---2---2---0---0---2---2---0---0---2---2---0-------0-------
2-------0-------2-------0-------2-------0-------0-------0-------

 

F       G       F       G       F       G       C       /      
----------------------------------------------------------------
----------0---------------0---------------0-----0---------------
0---0---2---2---0---0---2---2---0---0---2---2---0---0---0-------
2-------0-------2-------0-------2-------0-------0-------0-------

C       G       C       G       C       /       /       G
3---3---2-3-2---0---0-----0-----0-------------------------------
0-------3-------0-------3---3---0---0---0-----------0---3-------
0-------2-------0-------2-------0-------0-------0-2-----2-------
0-------0-------0-------0-------0-------0-------0-------0-------

 

C       G       C       G       C       /       /       G
3---3---2-3-2---0---0-----0-----0-------------------------------
0-------3-------0-------3---3---0---0---0-----------0---3-------
0-------2-------0-------2-------0-------0-------0-2-----2-------
0-------0-------0-------0-------0-------0-------0-------0-------

 

G       /       /       /       C       /       /       /
----------------------------------------------------------------
--0-1---3---------0-1---3-----------0---3-----------0---3-------
2-------2-------2-------2-------0-2-----0-------0-2-----0-------
0-------0-------0-------0-------0-------0-------0-------0-------

 

G       /       /       /       C       /       /       /
----------------------------------------------------------------
--0-1---3---------0-1---3-----------0---3-----------0---3-------
2-------2-------2-------2-------0-2-----0-------0-2-----0-------
0-------0-------0-------0-------0-------0-------0-------0-------

 

C       G       C       G       C       /       /       G
3---3---2-3-2---0---0-----0-----0-------------------------------
0-------3-------0-------3---3---0---0---0-----------0---3-------
0-------2-------0-------2-------0-------0-------0-2-----2-------
0-------0-------0-------0-------0-------0-------0-------0-------

 

C       G       C       G       C       /       /       G
3---3---2-3-2---0---0-----0-----0-------------------------------
0-------3-------0-------3---3---0---0---0-----------0---3-------
0-------2-------0-------2-------0-------0-------0-2-----2-------
0-------0-------0-------0-------0-------0-------0-------0-------

 

F       G       F       G       F       G       C       /
----------------------------------------------------------------
----------0---------------0---------------0-----0---3---3-------
0---0---2---2---0---0---2---2---0---0---2---2---0-------0-------
2-------0-------2-------0-------2-------0-------0-------0-------

 

F       G       F       G       F       G       C       /
----------------------------------------------------------------
----------0---------------0---------------0-----0---------------
0---0---2---2---0---0---2---2---0---0---2---2---0---0---0-------
2-------0-------2-------0-------2-------0-------0-------0-------

Mike Gradwell

Ukulele and Classical Guitar Tuition

Contact

​Tel:  01524 941548

​Mail: mike.gradwell@gmail.com

 

Follow Mike
  • w-facebook
  • w-youtube