Strange Magic ELO

Intro

G   /   /   /   G+  /   /   /   G   /   /   /   G+  /   /   /  

5-3-3-2-2-------2---1---0---1---5-3-3-2-2-------2---1---0---1---

3-------3-------3-------3-------3-------3-------3-------3-------

2-------2-------3-------3-------2-------2-------3-------3-------

0-------0-------0-------0-------0-------0-------0-------0-------

 

G   /   /   /   Cm  /   /   /   G   /   /   /   Cm  /   /   /  

2-------2-3---5-8-686-565-353---2-3-5---5---3-2-1-0-------------

3-------3-----------------------3-------3-------3---4-3-2-1-0---

2-------2-----------------------2-------2-------3-------------3-

0-------0-------0---0---0-------0-------0-------0---------------

 

G                        G+                        G              G+                         G                G+        Em

You're    sailing softly through the sun    in a broken Stone Age dawn,   you fly    so high.

           Dm             Em                           Dm                       Em                      Dm                       Em

I get a      strange magic,    oh, what a strange,   strange magic, oh, it's a strange,   strange magic

          Am            D7    G                   Am             D7     G*

Got a       strange    magic,      got a        strange    magic.

 

G*  /   /   /   G+  /   /   /  

5-3-3-2-2-------2---1---0---1---

3-------3-------3-------3-------

2-------2-------3-------3-------

0-------0-------0-------0-------

Mike Gradwell

Ukulele and Classical Guitar Tuition

Contact

​Tel:  01524 941548

​Mail: mike.gradwell@gmail.com

 

Follow Mike
  • w-facebook
  • w-youtube