Streams of Whiskey instrumental

/   C   /   /   /   C   /   /   /   C   /   /   /   G   /   /  

----------------------------------------3-2-0-------------------

--------------------0--10---0-3-----0-------0-3-1-0-------0-----

0-2-0---0-2-0---0-2-0-----2-0---0-2-0-------0-------2-0-2---2---

----0-------0-------0-------0-------0-------0-------0-------0---

 

/   C   /   /   /   C   /   /   /   C   /   /   /   G   /   C  

----------------------------------------3-2-0-------------------

--------------------0--10---0-3-----0-------0-3-1-0-------------

0-2-0---0-2-0---0-2-0-----2-0---0-2-0-------0-------2-0-0-2-0---

----0-------0-------0-------0-------0-------0-------0-------0---

Mike Gradwell

Ukulele and Classical Guitar Tuition

Contact

​Tel:  01524 941548

​Mail: mike.gradwell@gmail.com

 

Follow Mike
  • w-facebook
  • w-youtube