Study in Em Francisco Tàrrega

 (now for ukulele so it's a study in Am)

I / / I / / I / / I / / I / / I / / I / / I / / I / / I / / I / / I / /

0-----3-----3-----3-----2-----2-----5-----3-----2-----7-----7-----7-----

--0-----0-----0-----1-----1-----1-----4-----4-----4-----0-----0-----0---

----0-----0-----0-----2-----2-----2-----2-----2-----2-----0-----0-----0-

------------------------------------------------------------------------

 

I / / I / / I / / I / / I / / I / / I / / I / / I / / I / / I / / I / /

0-----3-----3-----3-----2-----2-----5-----3-----2-----0-----------------

--0-----0-----0-----1-----1-----1-----4-----4-----4---0-----------------

----0-----0-----0-----2-----2-----2-----2-----2-----2-0-----------------

------------------------------------------------------------------------

 

I / / I / / I / / I / / I / / I / / I / / I / / I / / I / / I / / I / /

0-----3-----3-----3-----2-----2-----5-----3-----2-----7-----7-----7-----

--0-----0-----0-----1-----1-----1-----4-----4-----4-----0-----0-----0---

----0-----0-----0-----2-----2-----2-----2-----2-----2-----0-----0-----0-

------------------------------------------------------------------------

 

I / / I / / I / / I / / I / / I / / I / / I / / I / / I / / I / / I / /

0-----3-----3-----3-----2-----2-----5-----3-----2-----0-----------------

--0-----0-----0-----1-----1-----1-----4-----4-----4---0-----------------

----0-----0-----0-----2-----2-----2-----2-----2-----2-0-----------------

------------------------------------------------------------------------

 

I / / I / / I / / I / / I / / I / / I / / I / / I / / I / / I / / I / /

0-----3-----7-----7-----5-----8-----2-----3-----5-----5-----3-----7-----

--0-----0-----0-----5-----5-----5-----1-----1-----1-----0-----0-----0---

----0-----0-----0-----5-----5-----5-----2-----2-----2-----0-----0-----0-

------------------------------------------------------------------------

 

I / / I / / I / / I / / I / / I / / I / / I / / I / / I / / I / / I / /

0-----3-----3-----3-----2-----2-----5-----3-----2-----0----<Z>----------

--0-----0-----0-----1-----1-----1-----4-----4-----4---0----<Z>----------

----0-----0-----0-----2-----2-----2-----2-----2-----2-0----<Z>----------

------------------------------------------------------------------------

Mike Gradwell

Ukulele and Classical Guitar Tuition

Contact

​Tel:  01524 941548

​Mail: mike.gradwell@gmail.com

 

Follow Mike
  • w-facebook
  • w-youtube