Summer Holiday (inst)

D   /   Bm  /   Em  /   A   /   D   /   Bm  /   Em  /   A   /  

------------------------4---2---------------------------4---2---

----2---2-------2---2---0-----------2---2-------2---2---0-------

2-------2--42---4-------1-------2-------2--42---4-------1-------

2-------4-------0-------2-------2-------4-------0-------2-------

 

D   /   Bm  /   Em  /   A   /   Em  /   A   /   D   /   /   /  

------------------------4---2--------------------------2--------

----2---2-------2---2---0--------------2------------2---5-------

2-------2--42---4-------1-------4---4---4-------2---------------

2-------4-------0-------2-------0-------2---2---2---------------

                

Em  /   A   /   D   /   /   /  

--------------------------------

------------2-------2-----------

4---4-2-4-------2-------4---2---

0-------2-------2---------------

Mike Gradwell

Ukulele and Classical Guitar Tuition

Contact

​Tel:  01524 941548

​Mail: mike.gradwell@gmail.com

 

Follow Mike
  • w-facebook
  • w-youtube