Superheroes Rocky Horror

Am              Am/G#           Am/G            D7
----3-2-3-----------3-2-3-5---------3-2-3---3-------5-3-2-0-----
0-0-0---0-0---0-0-0-0---0---0---0-0-0---0---0---2---2---2---2---
0---0---0---0---0---0---0---0---0---0---0---0---0---0---0---0---
2---2---2---2---1---1---1---1---0---0---0---0---2---2---2---2---

 

F               E7              Am             
----3-2-3-0-------------0---2---3-2-----0---------7-------------
1---1---1---1---0---4-4-0-------0-------0-------0-8-X---8-------
0---0---0---0---2---2-2-2-------0-------0---0-2---9-9---9-------
2---2---2---2---1---1-1-1-------2-------2-----------------------

Mike Gradwell

Ukulele and Classical Guitar Tuition

Contact

​Tel:  01524 941548

​Mail: mike.gradwell@gmail.com

 

Follow Mike
  • w-facebook
  • w-youtube