Swap Shop

C5 / C6 (till ready)
----------------

3-5-3-5-3-5-3-5-
0-0-0-0-0-0-0-0-
0-0-0-0-0-0-0-0-


C / / / F / / / G7/ / / G7C / / C / / / F / / / G7/ / / G7C / /
--3---1-0-010---------------------3---1-0-010-------------------
--------1----3101-1010101-3-------------1----3101-1010101-3-----
0-------0-------2-------2-0-----0-------0-------2-------2-0-----
0-------2-------0-------0-0----
-0-------2-------0-------0-0-----


Eb/ / / Ab/ / / Bb/ / / BbEb/ / Eb/ / / Ab/ / / Bb/ AbEb
--6---4-3-343-------------1-------6---4-3-343---5---3-1-
--------4----6434-4343434-3-------------4----64-686-4-3-
3-------3-------2-------2-3-----3-------3-------5---3-3-
3---------------3-------3-0-----3---------------------0-

Mike Gradwell

Ukulele and Classical Guitar Tuition

Contact

​Tel:  01524 941548

​Mail: mike.gradwell@gmail.com

 

Follow Mike
  • w-facebook
  • w-youtube