swap Shop

G (till ready)
------------------
3-5-3-5-3-5-3-5---
0-0-0-0-0-0-0-0---
0-0-0-0-0-0-0-0---


C       F            G7               C
--3---1-0-0-1-0----------------------------
--------1-------3-1-0-1--1-0-1-0-1-0--3----
0-------0-------------2---------------0----
0-------2-------------0---------------0----


C       F            G7               C
--3---1-0-0-1-0----------------------------
--------1-------3-1-0-1--1-0-1-0-1-0--3----
0-------0-------------2---------------0----
0-------2-------------0---------------0----


Eb      Ab           Bb              Eb
--6---4-3-3-4-3----------------------------
--------4-------6-4-3-4--4-3-4-3-4-3--6----
3-------3-------------2---------------3----
3-------------------------------------3----


Eb      Ab            Bb    Ab Eb
--6---4-3-3-4-3-------5-----3-------
--------4-------6-4-3-6-8-6-4--6----
3-------3-------------5-----3--3----
3------------------------------3----

Mike Gradwell

Ukulele and Classical Guitar Tuition

Contact

​Tel:  01524 941548

​Mail: mike.gradwell@gmail.com

 

Follow Mike
  • w-facebook
  • w-youtube