Sweet Child O' Mine (intro)

C   /   /   /   C   /   /   /   Bb  /   /   /   Bb  /   /   /  

--------8---7-----------8---7-----3-----8---7-----3-----8---7---

--8---------------8---------------------------------------------

0-----5---------0-----5---------2-----5---------2-----5---------

----0-----0---0-----0-----0---0-----0-----0---0-----0-----0---0-

F   /   /   /   F   /   /   /   C   /   /   /   C   /   /   /  

--------8---7-----------8---7-----------8---7-----------8---7---

--8---------------8---------------8---------------8-------------

5-----5---------5-----5---------0-----5---------0-----5---------

----0-----0---0-----0-----0---0-----0-----0---0-----0-----0---0-