Tales Of The Unexpected

/     C     /     /     /     F     /     /     /     C    

------3-----2-----0-----------3-----2-----0-----------3-----

--0-3-0-----0-----0-------0-3-1-----1-----1-------0-3-0-----

0-----0-----0-----0-----0-----0-----0-----0-----0-----0-----

------0-----0-----0-----------2-----2-----2-----------0-----

 

/     /     /     F     /     /     /     C     /     /    

2-----0-----------3-----2-----0-----------3-----5-----3-----

0-----0-------0-3-1-----1-----1-----3-----0-----0-----0-----

0-----0-----0-----0-----0-----0-----0-----0-----0-----0-----

0-----0-----------2-----2-----2-----2-----0-----0-----0-----

 

/     F     /     F     /     C     /     /     /     F    

------3-----2-----0-----------3-----2-----0-----------0-----

--0-3-1-----1-----1-------0-3-0-----0-----0-------0-3-1-----

0-----0-----0-----0-----0-----0-----0-----0-----0-----0-----

------2-----2-----2-----------0-----0-----0-----------2-----

 

/     G     /     C     /     /     /     F     /     /    

------2-----------3-----5-----3-----------3-----2-----0-----

1-----3-----3-----0-----0-----0-------0-3-1-----1-----1-----

------2-----------0-----0-----0-----0-----0-----0-----0-----

------0-----------0-----0-----0-----------2-----2-----2-----

 

/     C     /     /     /     F     /     G     /     C    

------3-----2-----0-----------0-----------2-----------3-----

--0-3-0-----0-----0-------0-3-1-----1-----3-----3-----0-----

0-----0-----0-----0-----0-----0-----------2-----------0-----

------0-----0-----0-----------2-----------0-----------0-----

 

/     /    

5-----3-----

0-----0-----

0-----0-----

0-----0-----

Mike Gradwell

Ukulele and Classical Guitar Tuition

Contact

​Tel:  01524 941548

​Mail: mike.gradwell@gmail.com

 

Follow Mike
  • w-facebook
  • w-youtube