Tales of the Riverbank

    F       C7      F       F       C       F       C     

3-1-0---0---1---1---3---3---0---0-----------0---0---3-1-0-1-----

------------------------------------3---3-------------------3---

------0---0---0---0---0---0---0---0---0---0---0---0-----------0-

----2---2---0---0---2---2---2---2---0---0---2---2---0-----------

 

    F       C       F       C       F       C7  F   C     

------------------------------------------0-1---0---0-----------

--0-1---1-3-0-----0-1---1-3-0-----0-1---3-----3---1---3-1-0-----

2-----0-------0-2-----0-------0-2-----0---------------------2-0-

----2---2---0-------2---2---0-------2---3---0---2---0-----------

 

    F       C7      F       F       C       F       C     

3-1-0---0---1---1---3---3---0---0-------------------3-1-0-1-----

------------------------------------0---0---1---1-----------3---

------0---0---0---0---0---0---0---0---0---0---0---0-----------0-

----2---2---0---0---2---2---2---2---0---0---2---2---0-----------

 

    F       C7      F       C7      F   G   F   C7  F     

--------------------------------------0-------------------------

--0-1---1-2-3-----0-1---1-2-3-----0-1-----3---1---0-1-1-----1---

2-----0-------0-2-----0-------0-2-------2---0---0-------0---0---

----2---2---3-------2---2---3-------2---0---2---0---2-----2-2---

Mike Gradwell

Ukulele and Classical Guitar Tuition

Contact

​Tel:  01524 941548

​Mail: mike.gradwell@gmail.com

 

Follow Mike
  • w-facebook
  • w-youtube