Tales of the Riverbank (for ukulele)

(now it's Andante in F by Mauro Giuliani)

/   I   /   /   /   I   /   /   /   I   /   /   /   I   /   /  

3-1-0---0---1---1---3---3---0---0-----------0---0---3-1-0-1-----

------------------------------------3---3-------------------3---

------0---0---0---0---0---0---0---0---0---0---0---0-----------0-

----2---2---0---0---2---2---2---2---0---0---2---2---0-----------

 

/   I   /   /   /   I   /   /   /   I   /   /   /   I   /   /  

------------------------------------------0-1---0---0-----------

--0-1-----3-0-----0-1-----3-0-----0-1---3-----3---1---3-1-0-----

2-----0---0---0-2-----0---0---0-2-----0---------------------2-0-

----2---2---3-------2---2---3-------2---0-2-3---2---0-----------

 

/   I   /   /   /   I   /   /   /   I   /   /   /   I   /   /  

3-1-0---0---1---1---3---3---0---0-----------0---0---3-1-0-1-----

------------------------------------3---3-------------------3---

------0---0---0---0---0---0---0---0---0---0---0---0-----------0-

----2---2---0---0---2---2---2---2---0---0---2---2---0-----------

 

/   I   /   /   /   I   /   /   /   I   /   /   /   I   /   /  

--------------------------------------0-------------------------

--0-1-----2-3-----0-1-----2-3-----0-1-----3---1---0-1-1-----1---

2-----0---0---0-2-----0---0---0-2-------2---0---0---0---0---0---

----2---2---3-------2---2---3-------2---3-----------2-----2-2---

Mike Gradwell

Ukulele and Classical Guitar Tuition

Contact

​Tel:  01524 941548

​Mail: mike.gradwell@gmail.com

 

Follow Mike
  • w-facebook
  • w-youtube