Teddy Bears' Picnic Instrumental

/ Dm/ / C / / Dm/ / C / / Dm/ / C / / Dm/ / Dm/ / F / / C /

------------------------------------------------------0---0-

------1-0-1-0-----1-0---1---0-1-0---1-------------1-----3---

0-2-----0-----2-----0-----2-----0-----2---------0-0-----0---

--2-----0-----2-----0-----2-----0-----2-----------2-----0---

 

/ F / / C / / F / / C / / F / / F / / C / / C / / C / / C /

------0-----0-----0-----0-----------3-5---3-5---3---0-3-0---

3-1-----3-----1-3---3-----1-----------0-----0-----3-----3---

--0-----0-----0-----0-----0-----------0-----0-----0-----0---

--2-----0-----2-----0-----2-----------0-----0-----0-----0---

 

/ F / / F / / F / / F / / Bb/ / F / / Bb/ / F / / C / / C /

------------------------------------------------0-----------

3-3---1-3---1-----1-----------1-----1---0-1-------3---------

--0-----0-----0-2---2---0-2-----0-----2-----0-----0---------

--2-----2-----2-----2-----3-----2-----3-----2-----0---------

 

/ F / / F / / 

--------------

--1-----------

--0-----------

--2-----------

 

Mike Gradwell

Ukulele and Classical Guitar Tuition

Contact

​Tel:  01524 941548

​Mail: mike.gradwell@gmail.com

 

Follow Mike
  • w-facebook
  • w-youtube