The Man Who Sold The World David Bowie

Intro

A   /   /   /   A   /   /   /   A   /   /   /   A   /   /   /  

0-0-0-----010---0-0-0-----010---0-0-0-----010---0-0-0-----010---

0-----3-------3-0-----3-------3-0-----3-------3-0-----3-------3-

1---------------1---------------1---------------1---------------

2---------------2---------------2---------------2---------------

F   /   /   /   F   /   /   /   Dm    

0-0-0-----010---0-0-0-----010---0---

1-----3-------3-1-----3-------3-1---

0---------------0---------------2---

2---------------2---------------2---

                                 A                                        Dm

We passed upon the stair, we spoke of was and when

                             A                                   F

Although I wasn't there, he said I was his friend

                                       C                                 A

Which came as some surprise, I spoke into his eyes

                                Dm                                C

I thought you died alone, a long long time ago

                  F       Bbm               F

Oh no, not me, I never lost control

            C         F                     Bb                         A       / / /  (with intro riff)  F /  Dm 

You're face to face, with the man who sold the world