The Model Kraftwerk

Intro

Am  /   /   /   Em  /   /   /   (x4)

0-----0-3-0-3-0-----------------

0-------0---------------3---3---          

0-------0-------4-----4-4-4-----          

2-------2-------0-------0-------           

Am                                  Em                Am Em                 

She's a model and she's looking good                            

     Am                                       Em              Am Em       

I'd like to take her home that's understood

       Am                                                  Em               Am Em

She plays hard to get, she smiles from time to time

    Am                               Em                      Am Em

It only takes a camera to change her mind

Riff One played in verses

Am/ / / Em/ / /

0----3202-------

0-------3--3----

0-------4---4---

2-------0-------

Mike Gradwell

Ukulele and Classical Guitar Tuition

Contact

​Tel:  01524 941548

​Mail: mike.gradwell@gmail.com

 

Follow Mike
  • w-facebook
  • w-youtube