The Needle and the Damage Done (intro)

G   /   /   /   G7  /   /   /   Am7 /   /   /   Cm  /   /   /  

----2-0-------------2-0-------------2-0-------------2-0---------

3---------3-----1---------3-----0---------3---------------3-----

2--2------------2--2------------0--0------------3--3------------

0---------------0---------------0---------------0---------------

 

F   /   /   /   /   /   /   /   A7sus4  /   /   A   /   /   /

----0---3---5---6---5---3---0---5---0-----------4---0----------

1---------------------------------------0---------------0------

0--0---0---0---0---0---0---0----2---2---2---2---1---1---1---1--

2---2---2---2---2---2---2---2---0---0---0---0---2---2---2---2--

Mike Gradwell

Ukulele and Classical Guitar Tuition

Contact

​Tel:  01524 941548

​Mail: mike.gradwell@gmail.com

 

Follow Mike
  • w-facebook
  • w-youtube