The Show Must Go On Queen

Intro

Am/ / / Am/ / / Am/ / / Am/ / / F / / / F / / / F / / /

3-3-3-3-2-2-2-2-5-5-5-5-3-3-3-323-3-3-3-2-2-2-2-5-5-5-5-

0-0-0-0-0-0-0-0-0-0-0-0-0-0-0-1-1-1-1-1-1-1-1-1-1-1-1-1-

0-0-0-0-0-0-0-0-0-0-0-0-0-0-0-0-0-0-0-0-0-0-0-0-0-0-0-0-

2-2-2-2-2-2-2-2-2-2-2-2-2-2-2-2-2-2-2-2-2-2-2-2-2-2-2-2-

 

F / / / Dm/ / / Dm/ / / Esus4/ / E7/ / / Dm/ / / E /

3-3-3-323-3-3-3-2-2-2-2-2-2-2-2-2-2-2-2-0-----------

1-1-1-1-1-1-1-1-1-1-1-1-0-0-0-0-0-0-0-0-1-------4---

0-0-0-0-2-2-2-2-2-2-2-2-2-2-2-2-2-2-2-2-2-------4---

2-2-2-2-----------------2-2-2-2-1-1-1-1-2-------4---

           Am                                          

Empty spaces, what are we living for?

                   F

Abandoned places, I guess we know the score

Dm                      E7sus4   E7                         Dm              E

On and on, does anybody know what we are looking for?

              Am                                      

Another hero, another mindless crime,

                  F

Behind the curtain, in the pantomime

Dm                          E7sus4   E7                    Dm

Hold the line, does anybody want to take it anymore?

 

                              Am /                                F            /

The show must go on,     the show must go on, yeah,

   Dm                                           E7sus4                E7                          

Inside my heart is breaking, my make-up may be flaking,

            Dm           Am          Am

But my smile still stays on.

Mike Gradwell

Ukulele and Classical Guitar Tuition

Contact

​Tel:  01524 941548

​Mail: mike.gradwell@gmail.com

 

Follow Mike
  • w-facebook
  • w-youtube