The Wrong Bus Jez Lowe

Intro and Instrumental

D / / / D / / / G / / / D / / / G / / / D / / / G / D / A / / /

--------------0-5---4-2-------0-5---4-2------------------------

------0-2-------3-------2-------3-------2-----2-3---2---0------

2---2---2-------2-------2-------2-------2-------2---2---1------

2---2---2-------0-------2-------0-------2-------0---2---2------

 

D / / / D / / / G / / / D / / / G / / / D / / / G / A / D / / /

--------------0-5---4-2-------0-5---4-2------------------------

------0-2-------3-------2-------3-------2-----2-3---0----------

2---2---2-------2-------2-------2-------2-------2---1---2------

2---2---2-------0-------2-------0-------2-------0---2---2------

Mike Gradwell

Ukulele and Classical Guitar Tuition

Contact

​Tel:  01524 941548

​Mail: mike.gradwell@gmail.com

 

Follow Mike
  • w-facebook
  • w-youtube