The Magic Roundabout

G               C               F               D

----------------------------------------------------------------

3---3-3---------0---0-0---------1---1-1---------2---2-2---------

2-------2---2---0-------0---0---0-------0---0---2-------2---2---

0-------0-------0-------0-------2-------2-------2-------2-------

 

G               C               F               D               G

------------------------------------------------------------------------

3---3-3---------0---0-0---------1---1-1---------2---2-2---------3-------

2-------2---2---0-------0---0---0-------0---0---2-------2---2---2-------

0-------0-------0-------0-------2-------2-------2-------2-------0-------

Mike Gradwell

Ukulele and Classical Guitar Tuition

Contact

​Tel:  01524 941548

​Mail: mike.gradwell@gmail.com

 

Follow Mike
  • w-facebook
  • w-youtube