The Miller's Song

D       /       Em      /       A7      /        D      /

----------------------------------------------------------------

----0---2-------------2-3---------------0-----------------------

2-------2---2---4---4---4-------1---1-2-1---1---2-------2-------

2-------2-------0-------0-------0-------0-------2-------2-------

 

D       /       Em      /       D       /       Em      A7

----------------------------------------0-----------------------

----0---2-------------2-3-------2---2-3-2-------3---2---0-------

2-------2---2---4---4---4-------2-------2---2---4-------1-------

2-------2-------0-------0-------2-------2-------0-------0-------

 

D       Em      D       G       A7      /        D      /

--------------------------------0-------------------------------

--------3-------2---2---3---2-3-0-------0-----------------------

2---2---4---4---2-------2-------1---------------2---------------

2-------0-------2-------0-------0---------------2---------------

 

D       /       Em      /       A7      /        D      /

----------------------------------------------------------------

------0-2-----------2---3---------------0-----------------------

2-------2---2---4-------4-------1-----2-1-2-1---2---------------

2-------2-------0-------0-------0-------0-------2---------------

 

D       /       Em      /       A7      /        D      /

--------------------------------0-------------------------------

------0-2-----------2---3---2-3-0-------0-----------------------

2-------2---2---4-------4-------1-------1-------2---------------

2-------2-------0-------0-------0-------0-------2---------------

 

Mike Gradwell

Ukulele and Classical Guitar Tuition

Contact

​Tel:  01524 941548

​Mail: mike.gradwell@gmail.com

 

Follow Mike
  • w-facebook
  • w-youtube