The White Horses

G   /   /   /   /   /   /   /   /   /   /   /   /   /   /   /     

----------------------------------------------------------------

--------0-------2-------0--20-----------0-------2-------0--20---

2-------2-------2-------2-------2-------2-------2-------2-------

0-------0-------0-------0-------0-------0-------0-------0-------

 

G   /   /   /   /   /   /   /   C   /   /   /   /   /   /   /  

----------------------------------------------------------------

3---2-------3---2-------3--2--------2-0-----2---0-------2--0----

2-------2-------2---2---2---2---0-------0-------0---0---0---0---

0-------0-------0-------0-------0-------0-------0-------0-------

 

G   /   /   /   /   /   /   /   D   /   /   /   /   /   /   /     

--------------------------------2-------------------------------

0-------------------------------2---5---5-----------------------

2---2---2-------2-------2-------2-------2-------2-------2-------

0-------0-------0-------0-------2-------2-------2-------2-------

 

G   /   /   /   /   /   /   /   C   /   /   /   /   /   /   /  

----------------------------------------------------------------

3---2-------3---2-------3--2--------2-0-----2---0-------2--0----

2-------2-------2---2---2---2---0-------0-------0---0---0---0---

0-------0-------0-------0-------0-------0-------0-------0-------

 

G   /   /   /   /   /   /   /   B7  /   /   /   /   /   /   /     

--------------------------------3---2---2-----------------------

0-------------------------------2-------2-----------------------

2---2---2-------2-------2-------3-------3-------3-------3-------

0-------0-------0-------0-------2-------0-------2-------2-------

 

C   /   /   /   /   /   /   /   G   /   /   /   /   /   /   /  

5---3-------5---3-------5--3----2-----------0---2-----------2---

3-------3-------3---3---3---3---3-----0-3-------3-------3-------

0-------0-------0-------0-------2---2---2-------2-------2-------

0-------0-------0-------0-------0-------0-------0-------0-------

 

Cmaj7   /   /   /   /   /   /   D7  /   /   /   /   /   /   /     

2---------------------------2---3-------------------------------

0---0---0---0---0---------------2---2---2---2---2---------------

0-------0-------0-------0-------2-------2-------2-------2-------

0-------0-------0-------0-------2-------2-------2-------2-------

 

G   /   /   /   /   /   /   /   C   /   /   /   /   /   /   /  

----------------------------------------------------------------

3---2-------3---2-------3--2--------2-0-----2---0-------2--0----

2-------2-------2---2---2---2---0-------0-------0---0---0---0---

0-------0-------0-------0-------0-------0-------0-------0-------

 

G   /   /   /   /   /   /   /   B7  /   /   /   /   /   /   /     

--------------------------------3---2---2-----------------------

0-------------------------------2-------2-----------------------

2---2---2-------2-------2-------3-------3-------3-------3-------

0-------0-------0-------0-------2-------0-------2-------2-------

 

C   /   /   /   /   /   /   /   D   /   /   /   G   /   /   /  

3---2-------3—--2-------3---2---0---2-------0-------------------

3-------3-------3---3---3-------2-------3-------3---------------

0-------0-------0-------0-------2-------2-------2---------------

0-------0-------0-------0-------2-------2-------0---------------

Mike Gradwell

Ukulele and Classical Guitar Tuition

Contact

​Tel:  01524 941548

​Mail: mike.gradwell@gmail.com

 

Follow Mike
  • w-facebook
  • w-youtube