Time Of Your Life (inst) Green Day

G / / / G / / / C / / / D / / / G / / / G / / / C / / / D / / /

----2-3-5---3-2-3---3---------------2-3-5---3-2-3---3-----------

3-------3-------0-----3-2-------3-------3-------0-----3-2-------

2-------2-------0-------2-------2-------2-------0-------2-------

0-------0-------0-------2-------0-------0-------0-------2-------

 

G / / / G / / / C / / / D / / / G / / / G / / / C / / / D / / /

----X---7-------3---3---------------2-3-5---3-2-3---3-----------

7-------7---X-7-0-----3-3-2-----3-------3-------0-----3-2-------

7-------7-------0-------2-------2-------2-------0-------2-------

7-------7-------0-------2-------0-------0-------0-------2-------

 

Em/ / / D / / / C / / / G / / / Em/ / / D / / / C / / / G / / /

2-----0-0-------------0-2-------2---0---0-----------------------

3------32---------0-3---3-------3-----3-2---3-2-0-------3-------

4-------2-------0-------2-------4-------2-------0-------2-------

0-------2-------0-------2-------0-------2-------0-------0-------

Mike Gradwell

Ukulele and Classical Guitar Tuition

Contact

​Tel:  01524 941548

​Mail: mike.gradwell@gmail.com

 

Follow Mike
  • w-facebook
  • w-youtube