Time Flies By (Chigley)

C   /   /   /   C   /   /   /   C   /   G   /   C   /   /   /  

3---7---5-3-2-0---0-------------3---3---2-0-----------0---------

0-------0-------3---3-1-0-------0-------3---3-1-0-1-3---3---3-3-

0-------0-------0-------0---2---0-------2-------0-------0-------

0-------0-------0-------0-------0-------0-------0-------0-------

 

F   /   C   /   G   /   C   /   G   /   C   /   /   /   /   /  

0---2-3-----------------------------------------------0-----3---

1-------3---0---3-1-0-------------3-3-3-0-3-3-3-0-1-3---3-------

0-------0-------2-----2-0-------2-------0-------0-------0-------

2-------0-------0-------0-------0-------0-------0-------0-------

 

G   /   C   /   D   /   G   /   D   /   /   /   G   /   /   /  

--------------0-----0-2-------------0-------0---2---3-0-2-------

--1-0---0-1-3---2-3-----3-------2---------------3-------3---2---

2-----2-0-------2-------2-------2-------2-------2-------2-------

0-------0-------2-------0—------2-------2-------0-------0-------

 

D   /   /   /   G   /   /   /   C   /   G   /   C   /   /   /  

----0-------0---2-3-0-2---------3---3---2-0-----------0---------

2---------------3-------3-------0-------3---3-1-0-1-3---3---3-3-

2-------2-------2-------2-------0-------2-------0-------0-------

2-------2-------0-------0-------0-------0-------0-------0-------

 

F   /   C   /   G   /   C   /   C   /   /   /   C   /   /   /  

0---2-3-------------------------3---7---5-3-2-0---0-------------

1-------3---0---3-1-0-----------0-------0-------3---3-1-0-------

0-------0-------2-----2-0-------0-------0-------0-------0---2---

2-------0-------0-------0-------0-------0-------0-------0-------

Mike Gradwell

Ukulele and Classical Guitar Tuition

Contact

​Tel:  01524 941548

​Mail: mike.gradwell@gmail.com

 

Follow Mike
  • w-facebook
  • w-youtube