Tonight You Belong To Me  (instrumental)

    Cm              /               /               /   

----------------------------------------------------------------

3---3---3---3------13---3---3------13---3---3------13---3---3---

----3---3---3---3-------3---3---3-------3---3---3-------3---3---

----0---0---0-----------0---0-----------0---0-----------0---0---

 

    G               /               A               D7   

----------------------------------------0-----------------------

--------------------------------------------0----0--2-----------

3---2---2---2------02---2---2---2---1-------1----1--0-----------

--------0---0---4-------0---0-------2-------2----2--2-----------

Mike Gradwell

Ukulele and Classical Guitar Tuition

Contact

​Tel:  01524 941548

​Mail: mike.gradwell@gmail.com

 

Follow Mike
  • w-facebook
  • w-youtube