Troika Prokofiev

/   C   /   F   /   C   /   /   /   Db  /   /   /   Ab  /   /  

----3-2-0-2-3---0-------0---------------------------------------

3---0-------1-------3-------0-------1-------4---3-4-------------

----0-------0-------0-------0---3---1-3-1---1-------3-----------

----0-------2-------0-------0-------1-------1-------1-----------

 

/   Eb  /   /   /   Ab  /   /   /   Db  /   Eb  /   Ab  /   /  

----------------------------------------------------------------

--------1-----------------------4-1-----------------4-----------

1-0---------3---1---3-1-0-1-3-------1---0-1-3---3---3-----------

----3---------------1-------1-------1-------3-------1-----------

 

/   Db  /   Eb  /   Ab  /   /   /   C   /   /   /   C   /   /  

----------------------------------------------------------------

4-1-------------------------------------------------------------

----1---0-1-3---3-------------------0---0---0---0---0---0---0---

----1-------0-------1---------------0---0---0---0---0---0---0---

 

/   C   /   /   /   C   /   /   /   F   /   /   /   C   /   /  

----3-2-0-2-3---0-------0-----------0-------3---2-3-------------

3---0-------0-------3-------0---3---1-3-1---1-------3-----------

----0-------0-------0-------0-------0-------0-------0-----------

----0-------0-------0-------0-------2-------2-------0-----------

 

/   Dm  /   /   /   C   /   /   /   F   /   G   /   C   /   /  

--------0-----------------------3-0-----------------------------

1-0---------3---1---3-1-0-1-3-------1---0-1-3---3---------------

----2-------2-------0-------0-------0-------2-------0-----------

----2-------2-------0-------0-------2-------0-------0-----------

 

/   C   /   /   /   C   /   /   /   C   /   /   /   C   /   /  

3-------3-----------------------3-------3-----------------------

----3-------3---3-4-6---4-3-4-------3-------3---3-4-6-----------

----0-------0-------0-------0-------0-------0-------0-----------

----0-------0-------0-------0-------0-------0-------0-----------

 

/   E   /   A   /   E   /   A   /   E   /   A   /   E   /   A  

------------4---------------4---------------4---------------4---

4-5-7-4-----5-5-----7-4-----5---4-5-7-4-----5-5-----7-4-----5---

----4---4-4-4---4-4-4---4-4-4-------4---4-4-4---4-4-4---4-4-4---

----4-------6-------4-------6-------4-------6-------4-------6---

 

/   C   /   /   /   C   /   /   /   F   /   /   /   C   /   /  

----3-2-0-2-3---0-------0-----------0-------3---2-3-------------

3---0-------0-------3-------0---3---1-3-1---1-------3-----------

----0-------0-------0-------0-------0-------0-------0-----------

----0-------0-------0-------0-------2-------2-------0-----------

 

/   Dm  /   /   /   C   /   /   /   F   /   G   /   C   /   /  

--------0-----------------------3-0-----------------------------

1-0---------3---1---3-1-0-1-3-------1---0-1-3---3---------------

----2-------2-------0-------0-------0-------2-------0-----------

----2-------2-------0-------0-------2-------0-------0-----------

 

/   C   /   /   /   C   /   /   /   C   /   /   /   C   /   /  

3-------3-----------------------3-------3-----------------------

----3-------3---3-4-6---4-3-4-------3-------3---3-4-6-----------

----0-------0-------0-------0-------0-------0-------0-----------

----0-------0-------0-------0-------0-------0-------0-----------

 

/   Am  /   Dm  /   Am  /   Dm  /   F   /   /   /   F   /   /   

----0---------------0-----------0-2-2-222-2-3-0-0-0-2-222-2-3---

0-1-0-000-0-0-1-2---0-000-1---------1-------1-------1-------1---

----0-------2-----2-0-------2-------0-------0-------0-------0---

----2-------2-------2-------2-------2-------2-------2-------2---

 

/   G   /   C   /   G   /   /   /   Ab  /   Db  /   Ab  /   /  2-3-5-2-------3-2-0-5-2---3-2---3-4-6-3-------4-3-1-6-3---4-3---

----3---3-3-3-------3---3---3-------4---4-4-4-------4---4---4---

----2-------0-------2-------2-------3-------1-------3-------3---

----0-------0-------0-------0---------------1-------------------

/   C   /   /   /   C   /   /   /   F   /   /   /   C   /   /  

----3-2-0-2-3---0-------0-----------0-------3---2-3-------------

3---0-------0-------3-------0---3---1-3-1---1-------3-----------

----0-------0-------0-------0-------0-------0-------0-----------

----0-------0-------0-------0-------2-------2-------0-----------

 

/   Dm  /   /   /   C   /   /   /   F   /   G   /   C   /   /  

--------0-----------------------3-0-----------------------------

1-0---------3---1---3-1-0-1-3-------1---0-1-3---3---------------

----2-------2-------0-------0-------0-------2-------0-----------

----2-------2-------0-------0-------2-------0-------0-----------

 

/   C   /   /   /   C   /   /   /   C   /   /   /   C   /   /  

3-------3-----------------------3-------3-----------------------

----3-------3---3-4-6---4-3-4-------3-------3---3-4-6-----------

----0-------0-------0-------0-------0-------0-------0-----------

----0-------0-------0-------0-------0-------0-------0-----------

 

/   E   /   A   /   E   /   A   /   E   /   A   /   E   /   A  

------------4---------------4---------------4---------------4---

4-5-7-4-----5-5-----7-4-----5---4-5-7-4-----5-5-----7-4-----5---

----4---4-4-4---4-4-4---4-4-4-------4---4-4-4---4-4-4---4-4-4---

----4-------6-------4-------6-------4-------6-------4-------6---

 

/   C   /   /   /   C   /   /   /   F   /   /   /   C   /   /  

 

----3-2-0-2-3---0-------0-----------0-------3---2-3-------------

3---0-------0-------3-------0---3---1-3-1---1-------3-----------

----0-------0-------0-------0-------0-------0-------0-----------

----0-------0-------0-------0-------2-------2-------0-----------

 

/   Dm  /   /   /   C   /   /   /   F   /   G   /   C   /   /  

--------0-----------------------3-0-----------------------------

1-0---------3---1---3-1-0-1-3-------1---0-1-3---3---------------

----2-------2-------0-------0-------0-------2-------0-----------

----2-------2-------0-------0-------2-------0-------0-----------

/   Eb  /   /   /   Ab  /   /   /   Db  /   Eb  /   Ab  /   /  

----------------------------------------------------------------

--------1-----------------------4-1-----------------4-----------

1-0---------3---1---3-1-0-1-3-------1---0-1-3---3---3-----------

----3---------------1-------1-------1-------3-------1-----------

Mike Gradwell

Ukulele and Classical Guitar Tuition

Contact

​Tel:  01524 941548

​Mail: mike.gradwell@gmail.com

 

Follow Mike
  • w-facebook
  • w-youtube