True Love Ways

/   /   /   G   /   Bm7 /   C   /   D   /   G   /   Bm7 /   C

----------------------------------------------------------------

--------2-----------------------3---2---0-----------------------

------------2-------------------------------2-------------------

0---4-----------------------------------------------------------

    

/   D   /   G   /   Em  /   A7  /   /   /   D   /   /   /   D

--------0---2-----0-------------2---2-------0-------------------

3---2---------------3-------------------3-----------------------

----------------------------------------------------------------

----------------------------------------------------------------

 

/   /   /   G   /   Bm7 /   C   /   D   /   G   /   Bm7 /   C

3---2---0-------------------------------------------------------

------------3-------------------3---2---0-----------------------

--------------------------------------------2-------------------

----------------------------------------------------------------

    

/   D   /   G   /   Em7 /   Am  /   D   /   G   /   Cm  /   G

--------------------------2-0-----2-0---------------------------

3---2---0-----------0-------------------2---3-------------------

------------2---------------------------------------------------

------------------4---------------------------------------------

Mike Gradwell

Ukulele and Classical Guitar Tuition

Contact

​Tel:  01524 941548

​Mail: mike.gradwell@gmail.com

 

Follow Mike
  • w-facebook
  • w-youtube