Trumpton Theme

F               C7              F               C7
--------0---------------1---------------0---------------1-------
1---1-------1---0---0-------0---1---1-------1---0---0-------0---
0-0---0---0---0-0-0---0---0---0-0-0---0---0---0-0-0---0---0---0-
2---------------0---------------2---------------0---------------
F               C                               F
--------------------------------------------------------0-------
------------1---0---0-1-3-1-0-------0-1-3-------1---1-3-1-3-1---
0---0-2-0-------0-------0-------0-------0---0---0-------0-------
2-------2-------0-------0-------0-------0-------2-------2-------
Dm              Gm              F               C       C7
------------0---------0-1-0-------------0-------------0-1-------
----------------3---3---3---3---1---1-3-1---1---0-1-3---0-3-0-3-
2---2-0-2-------2-------2-------0-------0-------0-------0-------
2-------2-------0-------0-------2-------2-------0-------0-------
F               C7              F               C7
--------0---------------1---------------0---------------1-------
1---1-------1---0---0-------0---1---1-------1---0---0-------0---
0-0---0---0---0-0-0---0---0---0-0-0---0---0---0-0-0---0---0---0-
2---------------0---------------2---------------0---------------
Repeat last three lines then…
F
----------------
1---------------
0---------------
2---------------

Mike Gradwell

Ukulele and Classical Guitar Tuition

Contact

​Tel:  01524 941548

​Mail: mike.gradwell@gmail.com

 

Follow Mike
  • w-facebook
  • w-youtube