Trumpton Theme

Intro

       I / / I / /

       ----3-------

       ------3-----

       0-----------

       ------------

Here is the clock, the Trumpton clock.

Telling the time, steadily, sensibly, never too quickly, never too slowly.

Telling the time for Trumpton.

F   /   /   /   C7  /   /   /   F   /   /   /   C7  /   /   /

--------0---------------1---------------0---------------1-------

1---1-------1---0---0-------0---1---1-------1---0---0-------0---

0-0---0---0---0-0-0---0---0---0-0-0---0---0---0-0-0---0---0---0-

2---------------0---------------2---------------0---------------

 

F   /   /   /   C   /   /   /   C   /   /   /   F   /   /   /  

--------------------------------------------------------0-------

------------1---0---0-1-3-1-0-------0-1-3-------1---1-3-1-3-1---

0---0-2-0-------0-------0-------0-------0---0---0-------0-------

2-------2-------0-------0-------0-------0-------2-------2-------

 

Dm  /   /   /   Gm  /   /   /   F   /   /   /   C   /   C7  /

------------0---------0-1-0-------------0-------------0---1-----

----------------3---3---3---3---1---1-3-1---1---0-1-3---3---0-3-

2---2-3-2-------2-------2-------0-------0-------0-------0-------

2-------2-------0-------0-------2-------2-------0-------0-------

 

F   /   /   /   C7  /   /   /   F   /   /   /   C7  /   /   /

--------0---------------1---------------0---------------1-------

1---1-------1---0---0-------0---1---1-------1---0---0-------0---

0-0---0---0---0-0-0---0---0---0-0-0---0---0---0-0-0---0---0---0-

2---------------0---------------2---------------0---------------

 

F   /   /   /   C   /   /   /   C   /   /   /   F   /   /   /  

--------------------------------------------------------0-------

------------1---0---0-1-3-1-0-------0-1-3-------1---1-3-1-3-1---

0---0-2-0-------0-------0-------0-------0---0---0-------0-------

2-------2-------0-------0-------0-------0-------2-------2-------

 

Dm  /   /   /   Gm  /   /   /   F   /   /   /   C   /   C7  /

------------0---------0-1-0-------------0-------------0---1-----

----------------3---3---3---3---1---1-3-1---1---0-1-3---3---0-3-

2---2-3-2-------2-------2-------0-------0-------0-------0-------

2-------2-------0-------0-------2-------2-------0-------0-------

 

F   /   /   /   C7  /   /   /   F   /   /   /   C7  /   /   /   F

--------0---------------1---------------0---------------1-----------

1---1-------1---0---0-------0---1---1-------1---0---0-------0---1---

0-0---0---0---0-0-0---0---0---0-0-0---0---0---0-0-0---0---0---0-0---

2---------------0---------------2---------------0---------------2---