Trumpton Band

F           C7          F           C7          F          

----0---0-------1---1-------0---0-------1---3---0--1---0----

1-----------------------1-----------------------1---3---1---

0-----------0-----------0-----------0-----------0-----------

2-----------0-----------2-----------0-----------2-----------

 

F           C7          C7          C7          C7         

----0--13--------------01-------1------0--------------------

1--3------------0--13---0-----------3---1--30---0--1---0----

0-----------0--2--------0-----------0-----------0---2---0---

2-----------0-----------0-----------0-----------0-----------

 

C7          F           F           F           F          

------------0-------3---0--1---0----0--1---0--------0--13--4

----0--13--41-----------1---3---1---1---3---1---1--3--------

0--2--------0-----------0-----------0-----------0-----------

0-----------2-----------2-----------2-----------2-----------

 

Bb          Bb          F           C7          F          

5-----------5-------5---------------------------------------

6-----------6--86--8----8--65--68---6--5---56---5---5--68---

5-----------5-----------5-----------0---7-------5--7--------

------------------------5-----------0-----------5-----------

 

Bb          F           C7          F           F

5-------5-----------------------5--78-----------0-------3---

6--86--8----8--65--68------56--8----5-----------1---1-------

5-----------5-----------7-----------5---5-------0-----------

------------5-----------0-----------5-----------2-----------

 

F           C7          C7          C7          C7         

0-------3--------------01-------3---1-------3---1-------3---

1---1-----------0--13---0-----------0---3-------0---3-------

0-----------0--2--------0-----------0-----------0-----------

2-----------0-----------0-----------0-----------0-----------

 

C7          F           F           F           F          

------------0-----------0--1---0----0--1---0--------0--13--4

----0--13--41-----------1---3---1---1---3---1---1--3--------

0--2--------0-----------0-----------0-----------0-----------

0-----------2-----------2-----------2-----------2-----------

 

Bb          Bb          F           C7          F          

5-----------5-------5---------------------------------------

6-----------6--86--8----8--65--68---6--5---56---5---5--68---

5-----------5-----------5-----------0---7-------5--7--------

------------------------5-----------0-----------5-----------

 

Bb          F           C7          F

5-------5-----------------------5--78-----------

6--86--8----8--65--68------56--8----5-----------

5-----------5-----------7-----------5---5-------

------------5-----------0-----------5-----------

Mike Gradwell

Ukulele and Classical Guitar Tuition

Contact

​Tel:  01524 941548

​Mail: mike.gradwell@gmail.com

 

Follow Mike
  • w-facebook
  • w-youtube