Ukulele Sounds Like Lute Mike Gradwell

F   C   /   Dm  A   /   Dm  C   F   C   Dm  C   A   Dm  /  

0-------------------------------0---------------------------

1---3-------1---0-------1---3---1---0---1---3---0-----------

0---0-------2---1-------2---0---0---0---2---0---1---2-------

2---0-------2---2-------2---0---2---0---2---0---2---2-------

 

F   C   /   Dm  A   /   Dm  C   F   C   Dm  C   A   Dm  /  

0-------------------------------0---------------------------

1---3-------1---0-------1---3---1---0---1---3---0-----------

0---0-------2---1-------2---0---0---0---2---0---1---2-------

2---0-------2---2-------2---0---2---0---2---0---2---2-------

 

/   C   /   /   Dm  /   /   C   /   C   F   /   /   C   /  

----------------------------------------0-------0-----------

----0-------0---1-------1---3-----0-3---1-----------3-----1-

2---0-----0-----2-----2-----0-----------0-----------0-------

----0-----------2-----------0-----------2-----------0-------

 

/   Dm  /   /   Dm  /   /   Dm  /   /   C   /   /   Dm  /  

------------------------------------------------------------

0---------------------------------------0-------0---1-------

----2-------1---2-------------------2---0-----0-----2-----2-

----2-----------2-----------------------0-----------2-------

 

/   C   /   C   F   /   /   C   /   /   Dm  /   /   Dm  /  

----------------0-------0-----------------------------------

1---3-----0-3---1-----------3-----1-0-----------------------

----0-----------0-----------0-----------2-------1---2-------

----0-----------2-----------0-----------2-----------2-------

 

/   Dm  /   F   C   /   Dm  A   /   Dm  C   F   C   Dm  C  

------------0-------------------------------0---------------

------------1---3-------1---0-------1---3---1---0---1---3---

------------0---0-------2---1-------2---0---0---0---2---0---

------------2---0-------2---2-------2---0---2---0---2---0---

 

A   Dm  /   F   C   /   Dm  A   /   Dm  C   F   C   Dm  C  

------------0-------------------------------0---------------

0-----------1---3-------1---0-------1---3---1---0---1---3---

1---2-------0---0-------2---1-------2---0---0---0---2---0---

2---2-------2---0-------2---2-------2---0---2---0---2---0---

 

A   Dm  /   /   Dm  /  

------------------------

0-----------------------

1---2-------------------

2---2-------------------

Mike Gradwell

Ukulele and Classical Guitar Tuition

Contact

​Tel:  01524 941548

​Mail: mike.gradwell@gmail.com

 

Follow Mike
  • w-facebook
  • w-youtube