Valse d'Amelie

/   /   /   Dm  /   /   Dm  /   /   Am  /   /   Am  /   /   Dm  /   /  

--0-2-3-2-3-5-------------------3---2-------------------0---5-----------

------------------------------------------------------------------------

------------------------------------------------------------------------

------------------------------------------------------------------------

 

Dm  /   /   Am  /   /   Am  /   /   F   /   /   F   /   /   C   /   /  

5-7-5-3-2-3-2-------------------0---3-------------------2---------------

------------------------------------------------------------0-----------

------------------------------------------------------------------------

------------------------------------------------------------------------

 

C   /   /   F   /   /   F   /   /   C   /   /   C   /   

------------3-----------5-3-2-3-2---------------------------

------------------------------------0-----------------------

------------------------------------------------------------

------------------------------------------------------------

 

Mike Gradwell

Ukulele and Classical Guitar Tuition

Contact

​Tel:  01524 941548

​Mail: mike.gradwell@gmail.com

 

Follow Mike
  • w-facebook
  • w-youtube