Virginia Plain Roxy Music

Intro F / C5 / F / C5 /

 

F                                                 C5                 

     Make me a deal and make it straight, all signed and sealed, I'll take it

F                                               C5

     To Robert E. Lee I'll show it.      I hope and pray he don't blow it 'cause             

Bb                                                           G5                              C5

     We've been around a long time, just try,  to try, just try to        make the big time

 

F                                             C5                 

    Take me on a rollercoaster,     take me for an airplane ride

F                                                                         C5                 

     Take me for a six-day wonder but don't you,     don't you throw my pride aside besides

Bb                                                    G5                                   C5

     What's real and make believe.    Baby Jane's in Acapulco. We are flyin' down to Rio

Instrumental

F / / / F / / / C6/ / / C5/ / / F / / / F / / / C / / / C / / /  

----0-0-0-----0-0-0-0-0---------035-----035-----035-035-035-035-

-----------------------3----------------------------------------

----------------------------------------------------------------

----------------------------------------------------------------

 

Bb/ / / Bb/ / / G / / / C / / /

1-1-1-1-1-1-1-1---------3-21-0--

1-1-1-1-1-1-1-1-3-21-0--------3-

----------------------2---------

--------------------------------

 

 

 

 

Mike Gradwell

Ukulele and Classical Guitar Tuition

Contact

​Tel:  01524 941548

​Mail: mike.gradwell@gmail.com

 

Follow Mike
  • w-facebook
  • w-youtube