Vision On (Gallery)

/   /   /   C   /   /   /   A7  /   /   /   Dm  /   /   /   Dm
-----------------------0---------------0------------------------
0---1---2---3-----------0---3-------3---0---3---1---------------
---0---0---00---------------1---------------2-------------------
------------0---------------2---------------2-------2-----------

 

/   /   /   G   /   /   /   E7  /   /   /   Am  /   /   /   Am
----------------------------------------------------------------
----3--21--0-----------0--------------0-------------------------
------------2---------------2-------2-------2---0---------------
------------0-----------4---1-----------4-----------2-----------

 

/   /   /   C   /   /   /   Dm  /   /   /   G   /   /   /   Am
--------------------0-------------------------------------------
------------0-----------3---1----------0------------------------
--------0--20---------------2-----------2-0---------4---2---0---
----2--4----0---------------2---------------4---------------2---

 

/   /   /   Am  /   /   /   E7  /   /   /   D   /   /   /   G
-----------03-------0--32--02----------20---0-------0--0--------
--------0---0---------------0---0----------32-----------3--23---
-------0----0---------------2---------------2---2-----------2---
----2-------2---------------1---------------2---------------0---

 

/   /   /   C   /   /   /   A7  /   /   /   Dm  /   /   /   Dm
-----------------------0---------------0------------------------
0---1---2---3-----------0---3-------3---0---3---1---------------
---0---0---00---------------1---------------2-------------------
------------0---------------2---------------2-------2-----------

 

/   /   /   G   /   /   /   E7  /   /   /   Am  /   /   /   Am
----------------------------------------------------------------
----3--21--0-----------0--------------0-------------------------
------------2---------------2-------2-------2---0---------------
------------0-----------4---1-----------4---2-------2-----------

 

/   /   /   C   /   /   /   F   /   /   /   C   /   /   /   Am
--------------------0-------------------------------------0-3---
------------0-----------3---1-----------2---3---1---0---03------
--------0--20---------------0---------------0----------0--------
----2--4----0---------------2---------------0-------------------

 

/   /   /   G   /   /   /   G   /   /   /   C   /   /   /   C
----2-3-2-0-----------0---------0-------------------------------
------------3-----------0---3-----0-3-----------0--31---0-------
------------2---------------2---------------0---------------0---
------------0---------------0---------0-2---0---------------0---

 

Mike Gradwell

Ukulele and Classical Guitar Tuition

Contact

​Tel:  01524 941548

​Mail: mike.gradwell@gmail.com

 

Follow Mike
  • w-facebook
  • w-youtube