Wallace and Gromit

C / / / C / / / G / / / G / / / F / / G G / / / C / / / C / / /

--------------------------------0---0-2---0---------------------

3---1-0-3---1-0-3---------------1-3---3-----3-1-0---------------

0-------0-------2-2-------------0-----2---------0---------------

0-------0-------0---------------2-----0---------0---------------

C / / / C / / / G / / / G / / / F / / G G / / / C / G / C / / /   

--------------------------------0---0-2---0---2-3-------3-3-2-0-

3---1-0-3---1-0-3---------------1-3---3---------0---3---0-------

0-------0-------2-2-------------0-----2---------0---2---0-------

0-------0-------0---------------2-----0---------0---0---0-------

F / / / F / / / C / / / C / / / G / / G / / C / / / C / / /

3---2-0---3-2-0-3---0---------------------------------3-2-0-

1---------------0-----3---3-3-0-30303-30303-0---------------

0---------------0---------------2-----2-----0---------------

2---------------0---------------0-----0-----0---------------

 

F / / / F / / / C / / / C / / / G / / G / / C / / / C / / /

3---2-0---3-2-0-3---0-----------------------3---------------

1---------------0-----3---3-3-0-30303-30303-0---------0---0-

0---------------0---------------2-----2-----0-----------3---

2---------------0---------------0-----0-----0---------------

      

Dm/ / / Dm/ / / Am/ / / Am/ / / G / / G / / G / / / G / / / 0-----------------------------------------------------------

1---1-----1-0---0---------0-----------------3---------------

2-----2-------2-0---2-0-----2-0-20202-20202-2---------------

2---------------2---------------0-----0-----0---------------

 

C / / / C / / / G / / / G / / / F / / G G / / / C / / / C / / /

--------------------------------0---0-2---0---------------------

3---1-0-3---1-0-3---------------1-3---3-----3-1-0---------------

0-------0-------2-2-------------0-----2---------0---------------

0-------0-------0---------------2-----0---------0---------------

C / / / C / / / G / / / G / / / F / / G G / / / C / G / C / / /   

--------------------------------0---0-2---0---2-3-------3-------

3---1-0-3---1-0-3---------------1-3---3---------0---3---0-------

0-------0-------2-2-------------0-----2---------0---2---0-------

0-------0-------0---------------2-----0---------0---0---0-------

D / / / D / / / A / / / A / / / G / / A A / / / D / / / D / / /

0-------0-------0---------------2-0-2-4---2-0-------------------

2---3-2-2---3-2-0-0-------------3-----0-------3-2---------------

2-------2-------1---------------2-----1---------2---------------

2-------2-------2---------------0-----2---------2---------------

D / / / D / / / A / / / A / / / G / / A A / / / D / A / D / / /   

0-------0-------0---------------2-0-2-4---2---4-5---0---5-------

2---3-2-2---3-2-0-0-------------3-----0---------2---0---2-------

2-------2-------1---------------2-----1---------2---1---2-------

2-------2-------2---------------0-----2---------2---2---2-------

 

Mike Gradwell

Ukulele and Classical Guitar Tuition

Contact

​Tel:  01524 941548

​Mail: mike.gradwell@gmail.com

 

Follow Mike
  • w-facebook
  • w-youtube