Wallace and Gromit

C               G     F     G             C               G     F     G       C G C

----------------------0---0-2---0-------------------------------0---0-2-0---2-3---3-

3---1-0-3---1-0-3-----1-3---3-----3-1-0---3---1-0-3---1-0-3-----1-3---3-------0-3-0-

0-------0-------2-2---0-----2---------0---0-------0-------2-2---0-----2-------0-2-0-

0-------0-------0-----2-----0---------0---0-------0-------0-----2-----0-------0—0-0-

 

C     F           C           G                 C 

3-2-0-3-2-0-3-2-0-3-0------------------------------

------1-----------0---3-3-3-0-3-0-3-0-3-0-3-0-3-0--

------0-----------0-----------2-----------------0--

------2-----------0-----------0-----------------0--

 

      Dm            Am              G            

------0-----------------------------------------------------

0---0-1-0-----1-0---0---------0-------------------------3---

--3---2---2-------2-0---2-0-----2-0-2-0-2-0-2-2-0-2-0-2-2---

------2-------------2---------------0---------0---------0---

 

C               G     F     G             C               G     F     G       C G C 

----------------------0---0-2---0-------------------------------0---0-2-0---2-3---3-

3---1-0-3---1-0-3-----1-3---3-----3-1-0---3---1-0-3---1-0-3-----1-3---3-------0-3-0-

0-------0-------2-2---0-----2---------0---0-------0-------2-2---0-----2-------0-2-0-

0-------0-------0-----2-----0---------0---0-------0-------0-----2-----0-------0—0-0-

 

D               A     G     A         D                  A     G     A       D A D                   

0-------0-------0-----2-0-2-4---2-0---0---0------0-------0-----2-0-2-4---2-4-5-0-5--

2---3-2-2---3-2-0-0---3-----0-------3-2---2--3-2-2---3-2-0-0---3-----0-------2-0-2--

2-------2-------1-----2-----1---------2---0------2-------1-----2-----1-------2-1-2--

2-------2-------2-----0-----2---------2---0------2-------2-----0-----2-------2-2-2--

 

Mike Gradwell

Ukulele and Classical Guitar Tuition

Contact

​Tel:  01524 941548

​Mail: mike.gradwell@gmail.com

 

Follow Mike
  • w-facebook
  • w-youtube