Waltzing Matilda

G   /   D   /   G   /   C   /   G   /   /   /   D   /   /   /
2-2-2-2-0---0-----0-2-----------------2-5---3-2-0---0---0-----0-
3-------2-------3-----3-0-2-3-------3---3-------2-------2---3---
2-------2-------2-------0-------2-------2-------2-------2-------
0-------2-------0-------0-------0-------0-------2-------2-------

G   /   D   /   G   /   C   /   G   /   /   /   D   /   G   /
2---2-2-0---0-----0-2-----------------2-5---3-2-0---0-----------
3-------2-------3-----3-0-2-3-------3---3-------2-------3-------
2-------2-------2-------0-------2-------2-------2-------2-------
0-------2-------0-------0-------0-------0-------2-------0-------

 

G   /   /   /   C   /   /   /   G   /   /   /   Am  /   D   /
5---5-5-5---2---X---X-X-9---7---5---5-5-7---5-5-5---3-2-0-----0-
3-------3-------8-------8-------3-------3-------0-------2---3---
2-------2-------7-------7-------2-------2-------0-------2-------
0-------0-------0-------0-------0-------0-------2-------2-------

 

G   /   D   /   G   /   C   /   G   /   /   /   D   /   G   /  
2---2-2-0---0-----0-2-----------------2-5---3-2-0---0-0---------
3-------2-------3-----3-0-2-3-------3---3-------2-------3-------
2-------2-------2-------0-------2-------2-------2-------2-------
0-------2-------0-------0-------0-------0-------2-------0-------

 

X=10

Mike Gradwell

Ukulele and Classical Guitar Tuition

Contact

​Tel:  01524 941548

​Mail: mike.gradwell@gmail.com

 

Follow Mike
  • w-facebook
  • w-youtube