we Are The Ovaltineys

F   /   /   /   /   /   /   /   /   /   /   /   Gm  /   /   /
------------------------------------------------1-----------1---
1-------0-----1-0---1---0-------0---1---0-------3---------------
0---------------0-----------2---0-----------2---2---------------
2---------------2---------------2---------------0---------------                                      
C7  /   /   /   Dm  /   /   /   G   /   /   /   C7  /   /   /
0-------3---0-------0-------------------------------------------
0---3-----------3-------3---1---0-------3---0-------0-----------
0---------------2---------------2---2-----------2-------2---0---
0---------------2---------------0---------------0---------------

F   /   /   /   /   /   /   /   /   /   /   /   Bb  /   /   /
------------------------------------------------5-----------5---
1---1---0-----1-0---1---0-------0---1---3---1---6---------------
0---------------0-----------2---0---------------5---------------
2---------------2---------------2-------------------------------
                        
Gm  /   /   /   /   /   /   /   F   /   /   /   F   /   /   /
5---------------5---------------3-3-0-----------3---0-----------
6---6---5-------6---6---5-------1-------3---1---1-------3-----1-
7-----------7---7-----------7---0---------------0---------------
0---------------0---------------2---------------2---------------
 
Gm  /   /   /   /   /   /   /   F   /   C   /   F   /   /   /
5---------------5---------------3-5-----0-----------------------
6---6---5-------6---6---5-------1-------0---3---1---------------
7-----------7---7-----------7---0-------0-------0---------------
0---------------0---------------2-------0-------2---------------


 

Mike Gradwell

Ukulele and Classical Guitar Tuition

Contact

​Tel:  01524 941548

​Mail: mike.gradwell@gmail.com

 

Follow Mike
  • w-facebook
  • w-youtube