We Wish You A Merry Christmas

Chorus

/   F   /   /   Bb  /   /   Gm  /   /   C   /  

----------------------------------0-------------

----1---1-3-1-0-------------3---3---3-1-0-------

0---0-----------2-------2---2-----------0---0---

----2-----------3---3-------0-----------0-------

 

/   Am  /   /   Dm  /   /   Bb  /   C   F   /   

----0---0-1-0-----------------------------------

0---0---------3-1---------------3---0---1-------

----0-----------2---2---0-0-2-------0---0-------

----2-----------2-----------3-------0---2-------

Verse

/   F   /   /   C   /   /   Dm  /   /   C   /  

------------------------------------------------

----1---1---1---0-------0---1---0---------------

0---0-----------0-----------2-------2---0-------

----2-----------0-----------2-----------0-------

 

/   F   /   /   C   /   /   Bb  /   C   F   /   

----0-----------3-------------------------------

3---1---3---1---0---------------3---0---1-------

----0-----------0---0---0-0-2-------0---0-------

----2-----------0-----------3-------0---2-------

Mike Gradwell

Ukulele and Classical Guitar Tuition

Contact

​Tel:  01524 941548

​Mail: mike.gradwell@gmail.com

 

Follow Mike
  • w-facebook
  • w-youtube