What Are You Doing New Year's Eve?

Intro   C   D7  Fm  G7

C     /     /     /     Bb7   /     /     /     C     /     /     /

------------------------------------------------------------------------

------0---0-------0---------0-----0-------------------3-2-3-------3-----

--------3---------------2-----2-----2-----------------------0-----------

------------0-----------1-----1-----1-----------------------------------

 

F     /     Fm    /     C     /     A7    /     D     /     /     /

------------------------------------------------------------------------

1---3-1---3-1-----------------0---0-------0-----------------------------

0-----0-----0-------------------2---------------2-----------------------

2-----2-----1-----------------------0-----------2-----------2-----------

 

G     /     /     /     C     /     D7    /     Fm    /     G7    /

------------0-----------------------------------------------------------

------------------------3-----------------------------------------------

------------------------------------------------------------------------

4-----------------------------------------------------------------------

 

C     /     /     /     Bb7   /     /     /     C     /     /     /

------------------------------------------------------------------------

------0---0-------0---------0-----0-------------------3-2-3-------3-----

--------3---------------2-----2-----2-----------------------0-----------

------------0-----------1-----1-----1-----------------------------------

 

F     /     Fm    /     C     /     A7    /     D     /     /     /

------------------------------------------------------------------------

1---3-1---3-1-----------------0---0-------0-----------------------------

0-----0-----0-------------------3---------------2-----------------------

2-----2-----1-----------------------0-----------2-----------2-----------

 

G     /     /     /     C     /     /     /     B7    /     /     /

------------------------------------------------------------------------

------------0-----------------------------------------------------------

------------------------0-----------------------------------------------

4-----------------------------------------------------------------------

 

Em    /     /     /     Am    /     B7    /     Em    /     /     /

------------------------------------------------------------------------

------------------------------------------------------------------------

------------4-----------------------------------------------4-----------

------4-4-4-------4-----2-----2-----4-----------------4-4-4-------4-----

 

Am    /     B7    /     Em    /     /     /     A     /     /     /     

------------------------------------------------------------------------

------------------------------------3-----------------------3-----0-----

------------------------------------------4-----------------------------

2-----2-----4-----------------4-4-4-------------------2---2-------------

 

D     /     /     /     G     /     /     /     G7    /     /     /    

------------0-----------------------------------------------------------

------------------------3-----------------------------------------------

2-----------------------------------------------------------------------

------------------------------------------------------------------------

 

C     /     /     /     Bb7   /     /     /     C     /     /     /

------------------------------------------------------------------------

------0---0-------0---------0-----0-------------------3-2-3-------3-----

--------2---------------2-----2-----2-----------------------0-----------

------------0-----------1-----1-----1-----------------------------------

 

F     /     Fm    /     C     /     A7    /     D     /     /     /

------------------------------------------------------------------------

1---3-1---3-1-----------------0---0-------0-----------------------------

0-----0-----0-------------------3---1-----------2-----------------------

2-----2-----1-----------------------0-----------2-----------2-----------

 

G     /     /     /     C     /     G7    /     C     /     A7    /

------------------------------------------------------------------------

------------0-----------------------------------------0---0-------0-----

------------------------0-------------------------------3---1-----------

4-----------------------------------------------------------0-----------

 

D     /     /     /     G     /     /     /     C     /     C     

------------------------------------------------------------3-----------

------------------------------------0-----------------------0-----------

2-----------------------------------------------0-----------0-----------

2-----------2-----------4-----------------------------------0-----------

Mike Gradwell

Ukulele and Classical Guitar Tuition

Contact

​Tel:  01524 941548

​Mail: mike.gradwell@gmail.com

 

Follow Mike
  • w-facebook
  • w-youtube