White Christmas

C   /   /   /   F   C   /   C   Dm  /   /   /   F#  G   /   /  

----------------------------------------------------------------

0-----------0---1---0-------0---1-----------1---2---3-----------

0-------0-------0---0---3---0---2-------2-------1---2-------2---

0---0-----------2---0---0-------2----2--------------0---0-------

 

F   /   /   /   Dm  /   /   /   C   /   /   /   /   /   /   /     

----0---2---3---5---------------3-------------------------------

1---------------5---8---7---5---3-------3-------0---------------

0---------------5---------------0---0-------0---0-------0---2---

2---------------5---------------0---------------0---0-----------

 

C   /   /   /   C   /   /   /   F   /   /   /   F   /   /   /  

--------------------0-------------------------------------------

0-------0-------0-----------3-----------------------3-------1---

0---------------0-------0-------0-------0-------0---------------

0---0-------0---0---------------2---2-------2---2-------2-------

 

C   /   /   /   F   C   /   C   Dm  /   /   /   G   /   /   /

--------------------------------------------0-------------------

0-----------0---1---0---------------------------3---------------

0-------0-------0-------2---0---2-------2-------2---------------

0---0-----------2---------------2----2----------0---------------

 

C   /   /   /   F   C   /   C   Dm  /   /   /   F#  G   /   /  

----------------------------------------------------------------

0-----------0---1---0-------0---1-----------1---2---3-----------

0-------0-------0---0---3---0---2-------2-------1---2-------2---

0---0-----------2---0---0-------2----2--------------0---0-------

 

 

F   /   /   /   Dm  /   /   /   C   /   /   /   /   /   /   /     

----0---2---3---5---------------3-------------------------------

1---------------5---8---7---5---3-------3-------0---------------

0---------------5---------------0---0-------0---0-------0---2---

2---------------5---------------0---------------0---------------

 

C   /   /   /   C   /   /   /   F   /   /   /   F   /   /   /  

--------------------0-----------3-------------------------------

0-------0-------0-----------3---1-------1-----------------------

0---------------0-------0-------0---0-------0-----------0---2---

0---0-------0---0---------------2---------------2---------------

 

C   /   /   /   Dm  /   G   /   C   /   /   /   C   /   /   /  

----------------0-------2-------3-------------------------------

0-------0-------1---1---3---3---0-------------------------------

0---------------2-------2-------0-------------------------------

0---0-------0---2-------0-------0-------------------------------

Mike Gradwell

Ukulele and Classical Guitar Tuition

Contact

​Tel:  01524 941548

​Mail: mike.gradwell@gmail.com

 

Follow Mike
  • w-facebook
  • w-youtube