Why Worry (intro) Dire Straits

C   /   /   /   G   /   /   /   C   /   /   /   G   /   /   /  

----------------------------------------------------------------

0-----------0---------0-1-1-1-0-0---0-----0-0-0-------0-1-1-1-0-

0---2-0---0---0---2-2---2-------0---------0-0-0---2-2---2-------

0-------0-------0-------0-------0-------0-------0-------0-------

 

C   /   /   /   F   /   /   /   G   /   /   /   G   /   /   /  

------------------------0-------2-------------------------------

0-------0---0-------1-3-1-1-----3-----------------------1-------

0-------0-----2-0-------0---2-0-2-------0-------2-------2-------

0---0-----0-----2-------2-------0-------0-------0-------0-------

 

C   /   /   /   G   /   /   /   C   /   /   /   G   /   /   /  

----------------------------------------------------------------

0-----------0---------0-1-1-1-0-0---0-----0-0-0-------0-1-1-1-0-

0---2-0---0---0---2-2---2-------0---------0-0-0---2-2---2-------

0-------0-------0-------0-------0-------0-------0-------0-------

 

C   /   /   /   F   /   /   /   G   /   /   /   G   /   /   /  

------------------------0-------2-------------------------------

3-------0---0-------1-3-1-1-----3-------------------------------

0-------0-----2-0-------0---2-0-2-------0-------2---------------

0---0-----0-----2-------2-------0-------0-------0---------------

 

C   /   /   /   F   /   G   /   C   /   /   /   F   /   G   /  

----------------------------------------------------------------

0-------0-----------------------0-------0-----------------------

0---0-2-0-2-0-2-0-------2-------0---0-2-0-2-0-2-0-2-0---2-------

0-0-----0-------2-------0-------0-0-----0-------2-------0-------

 

C   /   /   /   F   /   G   /   C   /   /   /   F   /   G   /  

----------------------------------------------------------------

0-------0-----------------------0-------0-----------------------

0---0-2-0-2-0-2-0-------2-------0---0-2-0-2-0-2-0-2-0---2-------

0-0-----0-------2-------0-------0-0-----0-------2-------0-------

 

C   /   G   /   C   /   /   /   C   /   G   /   G   /   /   /  

------------------------------------------3-2-----0-------------

----0---------------0-------------------------3-1---3--01-------

0-2-----2-------0-2---------------------2-------------2---0-0---

0-------0-------0-----------------------0---------------------4-

Mike Gradwell

Ukulele and Classical Guitar Tuition

Contact

​Tel:  01524 941548

​Mail: mike.gradwell@gmail.com

 

Follow Mike
  • w-facebook
  • w-youtube