Windy Miller

C             G            C              G
Windy Miller, Windy Miller sharper than a thorn
C                 G               C                  G
Like a mouse he’s spry and nimble when he grinds the corn
C                 G                  C              G
Like a bird he’ll watch the wind and listen for the sound
      C               G                C        G        C
Which says he has the wind he needs to make the sails go round

 

C           G           C           G
------------------------------3---3-------------
0---0-3---3-------3---3-0---3-------3-----------
0-----------2---2-------0-----------2-----------
0-----------0-----------0-----------0-----------
C           G           C           G
------------------------------3---3-------------
0---0-3---3-------3---3-0---3-------3-----------
0-----------2---2-------0-----------2-----------
0-----------0-----------0-----------0-----------
C           G           C           G
3---3-3---3-------------------------------------
0-----------3---3-3---3-0---0-3---3-------------
0-----------2-----------0-----------2-----------
0-----------0-----------0-----------0-----------
C           G           C     G     C
------------------------------------------------
0---0-3---3-------3---1-0-----------------------
0-----------2---2-------0---0-2---2-0-----------
0-----------0-----------0-----0-----0-----------

Mike Gradwell

Ukulele and Classical Guitar Tuition

Contact

​Tel:  01524 941548

​Mail: mike.gradwell@gmail.com

 

Follow Mike
  • w-facebook
  • w-youtube