Wonderful Land The Shadows

Intro

 

G   /   F   /   G   /   /   /   G   /   F   /   G   /   /   /   

---------------------------------------------------------------

----3---1-0-------------------------3---1-0--------------------

------------2-0-2---------------------------2-0-2--------------

0-------------------------------0------------------------------

 

G   /   /   /   D   /   /   /   F   /   /   /   C   /   /   /  

----------------0-0-----------------0-------0---3-3------------

----3-------3---------2-----------------1-------------3-0------

--------2---------------2--------------------------------------

---------------------------------------------------------------

 

C   /   /   /   F   /   /   /   Bb  /   /   /   G   /   /   /  

----3---5---7---8-8---7-5-------5---------5---5-5---------------

----------------------------8-----------------------------------

----------------------------------------------------------------

----------------------------------------------------------------

 

C   /   /   /   Em  /   /   /   C   /   /   /   F   /   /   /  

----7---3---0-----------------------7---3-------Z---------------

----------------3---------------------------3-------------------

----------------------------------------------------------------

----------------------------------------------------------------

           

Dm  /   /   /   C   /   /   /   G   /   /   /   F   /   /   /  

Z---------------X---------------5---------------8-7-8-----------

----------------------------------------------------------------

----------------------------------------------------------------

----------------------------------------------------------------

 

Fm  /   /   /   Em  /   /   /   Em  /   /   /   Em  /   /   /  

3-----------------------------2---------------2-----------------

--------4-------3-----------3---3-----------3---3-----------3---

--------------------------4---------------4---------------4-----

----------------------------------------------------------------

 

G   /   /   /   D   /   /   /   F   /   /   /   C   /   /   /  

----------------0--00---------------0-------0---3--33-----------

3-----------3---------2-----------------1-------------3-0-------

--------2---------------2---------------------------------------

----------------------------------------------------------------

 

C   /   /   /   F   /   /   /   Bb  /   /   /   G   /   /   /  

----3---5---7---8-8---7-5-------5---------5---5-5---------------

----------------------------8-----------------------------------

----------------------------------------------------------------

----------------------------------------------------------------

(pizz)

C   /   Em  /   F   /   G   /   C   /   Em  /   F   /   G   /  

----3---2-------0--03-0-------------3---2-------0--03-0---------

------------3-----------3-3-0---------------3-----------3-------

------------------------------2-0-------------------------------

----------------------------------------------------------------

                                                                          (normal)

C   /   G   /   F   /   G   /   Em  /   /   /   Em  /   /   /  

----7---5---2---3--35-3-2---0-----------------2---------------2-

------------------------------0-3-----------3---3-----------3---

------------------------------------------4---------------4-----

----------------------------------------------------------------

 

Em  /   /   /   G   /   /   /   D   /   /   /   F   /   /   /  

--------------2-----------------0--00---------------0-------0---

3-----------3---3-----------3---------2-----------------1-------

----------4-------------2---------------2----------------------

---------------------------------------------------------------

 

C   /   /   /   C   /   /   /   F   /   /   /   Bb  /   /   /  

3--33---------------3---5---7---8-8---7-5-------5-----------5--5

------3-0----------------------------------8-------------------

----------------------------------------------------------------

----------------------------------------------------------------

                                          (pizz)

G   /   /   /   C   /   Em  /   F   /   G   /   C   /   Em  /

5-------------------3---2-------0--03-0-------------3---2-------

----------------------------3-----------3-3-0---------------3---

----------------------------------------------2-0---------------

----------------------------------------------------------------

                                                                                                                   (normal)

F   /   G   /   C   /   G   /   F   /   G   /   Em  /   /   /  

0--03-0-------------7---5---2---3--35-3-2---0-----------------2-

--------3-------------------------------------0-3-----------3---

----------------------------------------------------------4-----

---------------------------------------------------------------

 

Em  /   /   /   Em  /   /   /   G   /   F   /   G   /   F   /  

--------------2---------------------X---8-7---------------------

3-----------3---3---------------------------X-8-X---------------

----------4---------------------7-------------------------------

----------------------------------------------------------------

 

G   /   F   /   G   /   F   /   G   /   F   /   G   /   F   /  G   ----X---8-7-------------------------X---8-7---------------------

------------X-8-X---------------------------X-8-X---------------

7-------------------------------7-------------------------------

----------------------------------------------------------------

 

Mike Gradwell

Ukulele and Classical Guitar Tuition

Contact

​Tel:  01524 941548

​Mail: mike.gradwell@gmail.com

 

Follow Mike
  • w-facebook
  • w-youtube