Yes, Sir, That's My Baby

C   /   /   /   G   /   /   /   G   /   /   /   C   /   /   /   C   /   /   /  

----0-----0-0-------0-----0-0-------0-----0-------------------------------------

3-------3-----4-3-------3-----4-3-------3---0-----------------------------------

0-------0-------2-------2-------2-------2-----2-0-------------------------------

0-------0-------0-------0-------0-------0-------0-------------------------------

C   /   /   /   G   /   /   /   G   /   /   /   C   /   /   /   C   /   /   /  

----0-----0-0-------0-----0-0-------0-----0-------------------------------------

3-------3-----4-3-------3-----4-3-------3---0-------------------------------0---

0-------0-------2-------2-------2-------2-----2-0------------------------2------

0-------0-------0-------0-------0-------0-------0-------------------------------

 

C   /   /   /   C   /   /   /   F   /   /   /   F   /   /   /   D7  /   /   /  

------------------------0-----------------------------------------------3-0---3-

----------------------------3---1-----------------------1---0-------------------

0-------------------------------0-------------------------------2---2-----------

0-------------------------------2-------------------------------2---2-----------

G   /   /   /   C   /   /   /   G   /   /   /   G   /   /   /   C   /   /   /  

2---------0---------0-----0-0-------0-----0-0-------0-----0---------------------

3-----------0---3-------3-----4-3-------3-----4-3-------3---0-------------------

2-------------2-0-------0-------2-------2-------2-------2-----2-0---------------

0---------------0-------0-------0-------0-------0-------0-------0---------------

Mike Gradwell

Ukulele and Classical Guitar Tuition

Contact

​Tel:  01524 941548

​Mail: mike.gradwell@gmail.com

 

Follow Mike
  • w-facebook
  • w-youtube