Yesterday

Intro
C   /   /    /    /   /   /   /  
----3-----3-3-3-------3-----3-3-3-
----0-----0-0-0-------0-----0-0-0-
0-------0---------0-------0-------
--------------------------------
Section A
C   /   /   /   Bm  /   E7  /   Am  /   /   G   F   /
----------------2-----------2-3-2-----0-0-----------0-0-
----------------2-----2-4-5-----0-----------3---1-------
2-0-0-----0-0-0-2---4---2-------0-----------2---0-------
0---0-----0-0-0-----------------2-----------0---2-------
G   /   C   /   /   G   Am  /   D   /   F   /   C   /
--------------------------------------------------------
3-1-0---1-----0-0-----------0---------------0---0-------
2-----2-0-------0---2---0-------2-------0-------0-------
0-------0-------0---0---2-------2-----2-2-------0-------
Repeat Section A
Section B
E   /   E7  /   Am  G   F   /   G   /   G7  /   C   /   /   /
----------------0---2---3---2-0-2-----0-----0-------------------
0-------0-------0---3---1-------3-------3-------0---------------
2-------2-------0---2---0-------2-------2-------0-------0-------
1-------1-------2---0---2-------0-------0-------0-------0-------
E   /   E7  /   Am  G   F   /   G   /   G7  /   C   /   /   /
----------------0---2---3---2-0-2-----0-----2---3---------------
0-------0-------0---3---1-------3-------3-------0---3---1---0---
2-------2-------0---2---0-------2-------2-------0---------------
1-------1-------2---0---2-------0-------0-------0---------------
Repeat Section A then repeat Section B then repeat Section A
Outro
C   /   D   /   F   /   C   /
--------------------------------
----0---------------0---0-------
0-------2-------0-------0-------
0-------2---2---2-------0-------

Mike Gradwell

Ukulele and Classical Guitar Tuition

Contact

​Tel:  01524 941548

​Mail: mike.gradwell@gmail.com

 

Follow Mike
  • w-facebook
  • w-youtube