You've Got A Friend James Taylor

Intro  

C   /   /   /   F   /   G7  /   C   / C /   /   D   /   E7  /  

----3---------------3-------3-------------------0------------

0-------0---0---1-------1-------1-0---0---------2-3-2---0----

0-0-------2-----0-------2-------0---2-0---------2-----2-2----

0---------------2-------0-------0-----0---------2-------1----

                     Am           E7                        Am      E7         Am

When you're down and troubled and you need a helping hand,

       Dm                   G7                       C        Csus4   C

and nothing, woah, nothing is going right,

Bm                            E7                       Am     E7       Am

Close your eyes and think of me and soon I will be there

     Dm              Em7                       G7sus4  G7

To brighten up even your darkest night.

 

                      C                Cmaj7               F                         Dm    

        You just call out my name, and you know wherever I am,  

        G7sus4   Cmaj7                      G7sus4 /  C                                          Cmaj7 

        I'll come running to see you again.         Winter, spring, summer, or fall,       

        F                              Am            Dm                             G7  G7                    C*

        All you got to do is call and I'll be there, yeah, yeah, yeah.  You've got a friend

C*  /   /   /   F   /   G7  /   C   / C /   /   D   /   E7  /  

----3---------------3-------3-------------------0------------

0-------0---0---1-------1-------1-0---0---------2-3-2---0----

0-0-------2-----0-------2-------0---2-0---------2-----2-2----

0---------------2-------0-------0-----0---------2-------1----

Mike Gradwell

Ukulele and Classical Guitar Tuition

Contact

​Tel:  01524 941548

​Mail: mike.gradwell@gmail.com

 

Follow Mike
  • w-facebook
  • w-youtube